ISO-10303-21;
HEADER;
FILE_DESCRIPTION (( 'STEP AP203' ),
    '1' );
FILE_NAME ('BK7-LPDBSP-25.4-900.STEP',
    '2020-12-22T02:19:22',
    ( '' ),
    ( '' ),
    'SwSTEP 2.0',
    'SolidWorks 2020',
    '' );
FILE_SCHEMA (( 'CONFIG_CONTROL_DESIGN' ));
ENDSEC;

DATA;
#1 = SHAPE_DEFINITION_REPRESENTATION ( #14, #77 ) ;
#2 = CARTESIAN_POINT ( 'NONE',  ( -1.187907395172932594E-15, 0.000000000000000000, 12.69999999999999929 ) ) ;
#3 = AXIS2_PLACEMENT_3D ( 'NONE', #33, #72, #164 ) ;
#4 = CARTESIAN_POINT ( 'NONE',  ( 3.499999999999998224, 0.000000000000000000, 0.000000000000000000 ) ) ;
#5 = EDGE_CURVE ( 'NONE', #53, #172, #25, .T. ) ;
#6 = CARTESIAN_POINT ( 'NONE',  ( 3.499999999999998224, 1.555301434917138433E-15, -12.69999999999999929 ) ) ;
#7 = VERTEX_POINT ( 'NONE', #118 ) ;
#8 = COORDINATED_UNIVERSAL_TIME_OFFSET ( 8, 0, .AHEAD. ) ;
#9 = ORIENTED_EDGE ( 'NONE', *, *, #5, .F. ) ;
#10 = APPROVAL_ROLE ( '' ) ;
#11 = AXIS2_PLACEMENT_3D ( 'NONE', #145, #78, #28 ) ;
#12 = CC_DESIGN_DATE_AND_TIME_ASSIGNMENT ( #34, #119, ( #73 ) ) ;
#13 = AXIS2_PLACEMENT_3D ( 'NONE', #20, #18, #84 ) ;
#14 = PRODUCT_DEFINITION_SHAPE ( 'NONE', 'NONE',  #73 ) ;
#15 = DATE_AND_TIME ( #30, #98 ) ;
#16 =( NAMED_UNIT ( * ) PLANE_ANGLE_UNIT ( ) SI_UNIT ( $, .RADIAN. ) );
#17 = LOCAL_TIME ( 10, 19, 22.00000000000000000, #8 ) ;
#18 = DIRECTION ( 'NONE',  ( -1.000000000000000000, -0.000000000000000000, -0.000000000000000000 ) ) ;
#19 = PERSON ( 'UNSPECIFIED', 'UNSPECIFIED', 'UNSPECIFIED', ('UNSPECIFIED'), ('UNSPECIFIED'), ('UNSPECIFIED') ) ;
#20 = CARTESIAN_POINT ( 'NONE',  ( 0.000000000000000000, 0.000000000000000000, 0.000000000000000000 ) ) ;
#21 = MECHANICAL_CONTEXT ( 'NONE', #67, 'mechanical' ) ;
#22 = ORIENTED_EDGE ( 'NONE', *, *, #102, .F. ) ;
#23 = PLANE ( 'NONE',  #3 ) ;
#24 = APPROVAL_DATE_TIME ( #140, #123 ) ;
#25 = LINE ( 'NONE', #76, #112 ) ;
#26 = EDGE_CURVE ( 'NONE', #35, #53, #135, .T. ) ;
#27 = AXIS2_PLACEMENT_3D ( 'NONE', #103, #47, #155 ) ;
#28 = DIRECTION ( 'NONE',  ( 1.000000000000000000, 0.000000000000000000, 0.000000000000000000 ) ) ;
#29 = ADVANCED_FACE ( 'NONE', ( #134 ), #94, .T. ) ;
#30 = CALENDAR_DATE ( 2020, 22, 12 ) ;
#31 = DIRECTION ( 'NONE',  ( -1.000000000000000000, -0.000000000000000000, -0.000000000000000000 ) ) ;
#32 = APPROVAL_PERSON_ORGANIZATION ( #44, #66, #90 ) ;
#33 = CARTESIAN_POINT ( 'NONE',  ( 3.499999999999999112, 12.69999999999999929, 0.000000000000000000 ) ) ;
#34 = DATE_AND_TIME ( #169, #17 ) ;
#35 = VERTEX_POINT ( 'NONE', #6 ) ;
#36 = FACE_OUTER_BOUND ( 'NONE', #108, .T. ) ;
#37 = APPROVAL_DATE_TIME ( #95, #113 ) ;
#38 = ORIENTED_EDGE ( 'NONE', *, *, #54, .F. ) ;
#39 = SECURITY_CLASSIFICATION ( '', '', #161 ) ;
#40 = CC_DESIGN_PERSON_AND_ORGANIZATION_ASSIGNMENT ( #80, #100, ( #158 ) ) ;
#41 = CLOSED_SHELL ( 'NONE', ( #29, #81, #129, #168 ) ) ;
#42 = APPLICATION_PROTOCOL_DEFINITION ( 'international standard', 'config_control_design', 1994, #67 ) ;
#43 = COORDINATED_UNIVERSAL_TIME_OFFSET ( 8, 0, .AHEAD. ) ;
#44 = PERSON_AND_ORGANIZATION ( #19, #55 ) ;
#45 = PRODUCT ( 'BK7-LPDBSP-25.4-900', 'BK7-LPDBSP-25.4-900', '', ( #21 ) ) ;
#46 = CARTESIAN_POINT ( 'NONE',  ( -1.187907395172932594E-15, 0.000000000000000000, 0.000000000000000000 ) ) ;
#47 = DIRECTION ( 'NONE',  ( -1.000000000000000000, -0.000000000000000000, -0.000000000000000000 ) ) ;
#48 = CARTESIAN_POINT ( 'NONE',  ( 0.000000000000000000, 0.000000000000000000, 0.000000000000000000 ) ) ;
#49 = CALENDAR_DATE ( 2020, 22, 12 ) ;
#50 = ORIENTED_EDGE ( 'NONE', *, *, #102, .T. ) ;
#51 = AXIS2_PLACEMENT_3D ( 'NONE', #46, #101, #117 ) ;
#52 = APPROVAL_ROLE ( '' ) ;
#53 = VERTEX_POINT ( 'NONE', #58 ) ;
#54 = EDGE_CURVE ( 'NONE', #53, #35, #143, .T. ) ;
#55 = ORGANIZATION ( 'UNSPECIFIED', 'UNSPECIFIED', '' ) ;
#56 = PERSON_AND_ORGANIZATION_ROLE ( 'creator' ) ;
#57 =( LENGTH_UNIT ( ) NAMED_UNIT ( * ) SI_UNIT ( .MILLI., .METRE. ) );
#58 = CARTESIAN_POINT ( 'NONE',  ( 3.499999999999998224, 0.000000000000000000, 12.69999999999999929 ) ) ;
#59 = FACE_OUTER_BOUND ( 'NONE', #74, .T. ) ;
#60 = APPROVAL_PERSON_ORGANIZATION ( #170, #113, #10 ) ;
#61 = EDGE_LOOP ( 'NONE', ( #120, #137 ) ) ;
#62 = PERSON_AND_ORGANIZATION ( #19, #55 ) ;
#63 = DIRECTION ( 'NONE',  ( -1.000000000000000000, -0.000000000000000000, -0.000000000000000000 ) ) ;
#64 = PERSON_AND_ORGANIZATION ( #19, #55 ) ;
#65 = DESIGN_CONTEXT ( 'detailed design', #152, 'design' ) ;
#66 = APPROVAL ( #127, 'UNSPECIFIED' ) ;
#67 = APPLICATION_CONTEXT ( 'configuration controlled 3d designs of mechanical parts and assemblies' ) ;
#68 = APPROVAL_DATE_TIME ( #15, #66 ) ;
#69 =( NAMED_UNIT ( * ) SI_UNIT ( $, .STERADIAN. ) SOLID_ANGLE_UNIT ( ) );
#70 = CARTESIAN_POINT ( 'NONE',  ( -1.187907395172932594E-15, 0.000000000000000000, 0.000000000000000000 ) ) ;
#71 = DIRECTION ( 'NONE',  ( 0.000000000000000000, 0.000000000000000000, 1.000000000000000000 ) ) ;
#72 = DIRECTION ( 'NONE',  ( -1.000000000000000000, 0.000000000000000000, -0.000000000000000000 ) ) ;
#73 = PRODUCT_DEFINITION ( 'UNKNOWN', '', #158, #65 ) ;
#74 = EDGE_LOOP ( 'NONE', ( #38, #122 ) ) ;
#75 = PERSON_AND_ORGANIZATION ( #19, #55 ) ;
#76 = CARTESIAN_POINT ( 'NONE',  ( 0.000000000000000000, 0.000000000000000000, 12.69999999999999929 ) ) ;
#77 = ADVANCED_BREP_SHAPE_REPRESENTATION ( 'BK7-LPDBSP-25.4-900', ( #88, #11 ), #151 ) ;
#78 = DIRECTION ( 'NONE',  ( 0.000000000000000000, 0.000000000000000000, 1.000000000000000000 ) ) ;
#79 = AXIS2_PLACEMENT_3D ( 'NONE', #4, #82, #71 ) ;
#80 = PERSON_AND_ORGANIZATION ( #19, #55 ) ;
#81 = ADVANCED_FACE ( 'NONE', ( #36 ), #104, .T. ) ;
#82 = DIRECTION ( 'NONE',  ( -1.000000000000000000, -0.000000000000000000, -0.000000000000000000 ) ) ;
#83 = PERSON_AND_ORGANIZATION ( #19, #55 ) ;
#84 = DIRECTION ( 'NONE',  ( 0.000000000000000000, 0.000000000000000000, 1.000000000000000000 ) ) ;
#85 = CALENDAR_DATE ( 2020, 22, 12 ) ;
#86 = ORIENTED_EDGE ( 'NONE', *, *, #144, .F. ) ;
#87 = UNCERTAINTY_MEASURE_WITH_UNIT (LENGTH_MEASURE( 1.000000000000000082E-05 ), #57, 'distance_accuracy_value', 'NONE');
#88 = MANIFOLD_SOLID_BREP ( 'Ðý×', #41 ) ;
#89 = CALENDAR_DATE ( 2020, 22, 12 ) ;
#90 = APPROVAL_ROLE ( '' ) ;
#91 = FACE_OUTER_BOUND ( 'NONE', #61, .T. ) ;
#92 = CARTESIAN_POINT ( 'NONE',  ( 0.000000000000000000, 1.555301434917138433E-15, -12.69999999999999929 ) ) ;
#93 = CC_DESIGN_PERSON_AND_ORGANIZATION_ASSIGNMENT ( #115, #148, ( #39 ) ) ;
#94 = CYLINDRICAL_SURFACE ( 'NONE', #163, 12.69999999999999929 ) ;
#95 = DATE_AND_TIME ( #49, #132 ) ;
#96 = COORDINATED_UNIVERSAL_TIME_OFFSET ( 8, 0, .AHEAD. ) ;
#97 = ORIENTED_EDGE ( 'NONE', *, *, #54, .T. ) ;
#98 = LOCAL_TIME ( 10, 19, 22.00000000000000000, #43 ) ;
#99 = CIRCLE ( 'NONE', #175, 12.69999999999999929 ) ;
#100 = PERSON_AND_ORGANIZATION_ROLE ( 'design_supplier' ) ;
#101 = DIRECTION ( 'NONE',  ( -1.000000000000000000, -0.000000000000000000, -0.000000000000000000 ) ) ;
#102 = EDGE_CURVE ( 'NONE', #35, #7, #139, .T. ) ;
#103 = CARTESIAN_POINT ( 'NONE',  ( 3.499999999999998224, 0.000000000000000000, 0.000000000000000000 ) ) ;
#104 = CYLINDRICAL_SURFACE ( 'NONE', #13, 12.69999999999999929 ) ;
#105 = LOCAL_TIME ( 10, 19, 22.00000000000000000, #146 ) ;
#106 = EDGE_LOOP ( 'NONE', ( #97, #50, #157, #9 ) ) ;
#107 = APPROVAL_STATUS ( 'not_yet_approved' ) ;
#108 = EDGE_LOOP ( 'NONE', ( #22, #154, #141, #86 ) ) ;
#109 = APPROVAL_PERSON_ORGANIZATION ( #62, #123, #52 ) ;
#110 = APPLICATION_PROTOCOL_DEFINITION ( 'international standard', 'config_control_design', 1994, #152 ) ;
#111 = CC_DESIGN_SECURITY_CLASSIFICATION ( #39, ( #158 ) ) ;
#112 = VECTOR ( 'NONE', #63, 1000.000000000000000 ) ;
#113 = APPROVAL ( #121, 'UNSPECIFIED' ) ;
#114 = PLANE ( 'NONE',  #159 ) ;
#115 = PERSON_AND_ORGANIZATION ( #19, #55 ) ;
#116 = CARTESIAN_POINT ( 'NONE',  ( -5.939536975864662969E-16, 12.69999999999999929, 0.000000000000000000 ) ) ;
#117 = DIRECTION ( 'NONE',  ( 0.000000000000000000, 0.000000000000000000, 1.000000000000000000 ) ) ;
#118 = CARTESIAN_POINT ( 'NONE',  ( -1.187907395172932594E-15, 1.555301434917138433E-15, -12.69999999999999929 ) ) ;
#119 = DATE_TIME_ROLE ( 'creation_date' ) ;
#120 = ORIENTED_EDGE ( 'NONE', *, *, #138, .T. ) ;
#121 = APPROVAL_STATUS ( 'not_yet_approved' ) ;
#122 = ORIENTED_EDGE ( 'NONE', *, *, #26, .F. ) ;
#123 = APPROVAL ( #107, 'UNSPECIFIED' ) ;
#124 = CC_DESIGN_PERSON_AND_ORGANIZATION_ASSIGNMENT ( #75, #56, ( #158 ) ) ;
#125 = CC_DESIGN_APPROVAL ( #123, ( #158 ) ) ;
#126 = DATE_AND_TIME ( #89, #105 ) ;
#127 = APPROVAL_STATUS ( 'not_yet_approved' ) ;
#128 = DIRECTION ( 'NONE',  ( 0.000000000000000000, 0.000000000000000000, -1.000000000000000000 ) ) ;
#129 = ADVANCED_FACE ( 'NONE', ( #59 ), #23, .F. ) ;
#130 = DIRECTION ( 'NONE',  ( 0.000000000000000000, 0.000000000000000000, 1.000000000000000000 ) ) ;
#131 = PRODUCT_RELATED_PRODUCT_CATEGORY ( 'detail', '', ( #45 ) ) ;
#132 = LOCAL_TIME ( 10, 19, 22.00000000000000000, #156 ) ;
#133 = CIRCLE ( 'NONE', #51, 12.69999999999999929 ) ;
#134 = FACE_OUTER_BOUND ( 'NONE', #106, .T. ) ;
#135 = CIRCLE ( 'NONE', #79, 12.69999999999999929 ) ;
#136 = PERSON_AND_ORGANIZATION_ROLE ( 'design_owner' ) ;
#137 = ORIENTED_EDGE ( 'NONE', *, *, #144, .T. ) ;
#138 = EDGE_CURVE ( 'NONE', #172, #7, #99, .T. ) ;
#139 = LINE ( 'NONE', #92, #147 ) ;
#140 = DATE_AND_TIME ( #85, #171 ) ;
#141 = ORIENTED_EDGE ( 'NONE', *, *, #5, .T. ) ;
#142 = CC_DESIGN_APPROVAL ( #113, ( #73 ) ) ;
#143 = CIRCLE ( 'NONE', #27, 12.69999999999999929 ) ;
#144 = EDGE_CURVE ( 'NONE', #7, #172, #133, .T. ) ;
#145 = CARTESIAN_POINT ( 'NONE',  ( 0.000000000000000000, 0.000000000000000000, 0.000000000000000000 ) ) ;
#146 = COORDINATED_UNIVERSAL_TIME_OFFSET ( 8, 0, .AHEAD. ) ;
#147 = VECTOR ( 'NONE', #150, 1000.000000000000000 ) ;
#148 = PERSON_AND_ORGANIZATION_ROLE ( 'classification_officer' ) ;
#149 = DIRECTION ( 'NONE',  ( 1.000000000000000000, 0.000000000000000000, 0.000000000000000000 ) ) ;
#150 = DIRECTION ( 'NONE',  ( -1.000000000000000000, -0.000000000000000000, -0.000000000000000000 ) ) ;
#151 =( GEOMETRIC_REPRESENTATION_CONTEXT ( 3 ) GLOBAL_UNCERTAINTY_ASSIGNED_CONTEXT ( ( #87 ) ) GLOBAL_UNIT_ASSIGNED_CONTEXT ( ( #57, #16, #69 ) ) REPRESENTATION_CONTEXT ( 'NONE', 'WORKASPACE' ) );
#152 = APPLICATION_CONTEXT ( 'configuration controlled 3d designs of mechanical parts and assemblies' ) ;
#153 = PERSON_AND_ORGANIZATION_ROLE ( 'creator' ) ;
#154 = ORIENTED_EDGE ( 'NONE', *, *, #26, .T. ) ;
#155 = DIRECTION ( 'NONE',  ( 0.000000000000000000, 0.000000000000000000, 1.000000000000000000 ) ) ;
#156 = COORDINATED_UNIVERSAL_TIME_OFFSET ( 8, 0, .AHEAD. ) ;
#157 = ORIENTED_EDGE ( 'NONE', *, *, #138, .F. ) ;
#158 = PRODUCT_DEFINITION_FORMATION_WITH_SPECIFIED_SOURCE ( 'ANY', '', #45, .NOT_KNOWN. ) ;
#159 = AXIS2_PLACEMENT_3D ( 'NONE', #116, #149, #128 ) ;
#160 = DATE_TIME_ROLE ( 'classification_date' ) ;
#161 = SECURITY_CLASSIFICATION_LEVEL ( 'unclassified' ) ;
#162 = CC_DESIGN_APPROVAL ( #66, ( #39 ) ) ;
#163 = AXIS2_PLACEMENT_3D ( 'NONE', #48, #167, #165 ) ;
#164 = DIRECTION ( 'NONE',  ( -0.000000000000000000, 0.000000000000000000, 1.000000000000000000 ) ) ;
#165 = DIRECTION ( 'NONE',  ( 0.000000000000000000, 0.000000000000000000, 1.000000000000000000 ) ) ;
#166 = CC_DESIGN_PERSON_AND_ORGANIZATION_ASSIGNMENT ( #64, #136, ( #45 ) ) ;
#167 = DIRECTION ( 'NONE',  ( -1.000000000000000000, -0.000000000000000000, -0.000000000000000000 ) ) ;
#168 = ADVANCED_FACE ( 'NONE', ( #91 ), #114, .F. ) ;
#169 = CALENDAR_DATE ( 2020, 22, 12 ) ;
#170 = PERSON_AND_ORGANIZATION ( #19, #55 ) ;
#171 = LOCAL_TIME ( 10, 19, 22.00000000000000000, #96 ) ;
#172 = VERTEX_POINT ( 'NONE', #2 ) ;
#173 = CC_DESIGN_PERSON_AND_ORGANIZATION_ASSIGNMENT ( #83, #153, ( #73 ) ) ;
#174 = CC_DESIGN_DATE_AND_TIME_ASSIGNMENT ( #126, #160, ( #39 ) ) ;
#175 = AXIS2_PLACEMENT_3D ( 'NONE', #70, #31, #130 ) ;
ENDSEC;
END-ISO-10303-21;
